Back to guitar page

 

Study #1 in C minor

Peter Kosenko
(feel free to play it, but not to publish it without asking me)

4/4 Time         Fast
E|--------------3-----------|--------------------------|--------------3-----------|--------------------------|
B|--------4-----------4-----|--------4-----------4-----|--------3-----------3-----|--------3-----------2-----|
G|-----0-----0-----0-----0--|-----0-----0-----0-----0--|-----0-----0-----0-----0--|-----0-----0-----0-----0--|
D|--5-----------------------|--6-----------5-----------|--3-----------------------|--3-----------3-----------|
A|--------------------------|--------------------------|--------------------------|--------------------------|
E|--------------------------|--------------------------|--------------------------|--------------------------|

E|--------------3-----------|--4-----------3-----------|--------------1-----------|--3-----------1-----------|
B|--------4-----------4-----|--------4-----------4-----|--------3-----------3-----|--------3-----------3-----|
G|-----0-----0-----0-----0--|-----0-----0-----0-----0--|-----0-----0-----0-----0--|-----0-----0-----0-----0--|
D|--------------------------|--------------------------|--------------------------|--------------------------|
A|--3-----------------------|--------------------------|--2-----------------------|--------------------------|
E|--------------------------|--------------------------|--------------------------|--------------------------|

E|--------------3-----------|--------------------------|--------------1-----------|--------------------------|
B|--------0-----------0-----|--------1-----------1-----|--------3-----------3-----|--------4-----------3-----|
G|-----0-----0-----0-----0--|-----0-----0-----0-----0--|-----0-----0-----0-----0--|-----0-----0-----0-----0--|
D|--------------------------|--1-----------------------|--------------------------|--------------------------|
A|--------------------------|--------------3-----------|--2-----------------------|--3-----------2-----------|
E|--3-----------------------|--------------------------|--------------------------|--------------------------|

E|--------------3-----------|--------1-----------1-----|--------------------------|--------------------------|
B|--------0-----------0-----|-----0-----0-----0-----0--|--------1-----------1-----|--------3-----------------|
G|-----0-----0-----0-----0--|--1-----------------------|-----0-----0-----0-----0--|-----0-----0--------0-----|
D|--------------------------|--------------3-----------|--1-----------------------|--------------------------|
A|--------------------------|--------------------------|--------------3-----------|--2-----------------------|
E|--3-----------------------|--------------------------|--------------------------|--------------3-----------|

   slower
E|--------------------------|--------------------------|--------------------------|--------------------------|
B|--0-----------------------|--------------------------|--------0-----------0-----|--------0-----------0-----|
G|--------------------------|--------------8-----------|--------------7-----------|--------------7-----------|
D|--------------5---slide---|--10----------------------|--------------------------|--------------------------|
A|--------------------------|--------------------------|--8-----------------------|--8-----------------------|
E|--------------------------|--------------------------|--------------------------|--------------------------|

E|--------------------------|--------------------------|--------------------------|--------------------------|
B|--8-----------8-----------|--8-----------8-----------|--------0-----------0-----|--------0-----------0-----|
G|--------0-----------0-----|--------0-----------0-----|--------------7-----------|--------------7-----------|
D|--------------5-----------|--------------5-----------|--------------------------|--------------------------|
A|--6-----------------------|--6-----------------------|--5-----------------------|--5-----------------------|
E|--------------------------|--------------------------|--------------------------|--------------------------|

E|--------------------------|--------------------------|--------------------------|--------------------------|
B|--4-----------4-----------|--------------3-----------|--------------3-----------|--4-----------4-----------|
G|--------o-----------0-----|--------0-----------0-----|--------0-----------0-----|--------0-----------0-----|
D|--------------1-----------|--------------------------|--------------------------|--------------1-----------|
A|--3-----------------------|--2-----------------------|--2-----------------------|--3-----------------------|
E|--------------------------|--------------------------|--------------------------|--------------------------|

E|--------------------------|--------------------------|--------------------------|--------------------------|
B|--------------1-----------|--0-----------0-----------|--------------1-----------|--0-----------------------|
G|--------1-----------1-----|--------0-----------0-----|--------1-----------1-----|--0-----------1-----------|
D|--------------------------|--------------------------|--------------------------|--------------------------|
A|--2-----------------------|--------------------------|--2-----------------------|--------------------------|
E|--------------------------|--3-----------------------|--------------------------|--3-----------------------|

E|--------------------------|--------------------------|--2-----------5-----------|--1-----------------------|
B|--0-----------1-----------|--3-----------4-----------|--------------------------|--3-----------------------|
G|--------------------------|--------------------------|--------------------------|--2-----------------------|
D|--------------------------|--------------------------|--------------------------|--------------------------|
A|--------------------------|--------------------------|--------------------------|--0-----0-----0-----0-----|
E|--------------------------|--------------------------|--------------------------|--------------------------|

E|--0-----------------------|--3-----------------4-----|--1-----------------------|--4-----------------4-----|
B|--2-----------------------|--4-----------------4-----|--3-----------------------|--3-----------------3-----|
G|--2-----------------------|--0-----------------0-----|--0-----------------------|--4-----------------4-----|
D|--------------------------|--------------------------|--------------------------|--------------------------|
A|--0-----0-----0-----0-----|--3-----3-----3-----3-----|--2-----2-----2-----2-----|--------------------------|
E|--------------------------|--------------------------|--------------------------|--0-----0-----0-----0-----|

E|--5-----------------5-----|--6-----------------6-----|--7-----------------------|
B|--5-----------------5-----|--5-----------------5-----|--7-----------------------|
G|--5-----------------5-----|--0-----------------0-----|--8-----------------------|
D|--------------------------|--------------------------|--------------------------|
A|--------------------------|--4-----4-----4-----4-----|--------------------------|
E|--5-----5-----5-----5-----|--------------------------|--7-----------------------|

Fast
E|--------------3-----------|--------------------------|--------------3-----------|--------------------------|
B|--------4-----------4-----|--------4-----------4-----|--------3-----------3-----|--------3-----------2-----|
G|-----0-----0-----0-----0--|-----0-----0-----0-----0--|-----0-----0-----0-----0--|-----0-----0-----0-----0--|
D|--5-----------------------|--6-----------5-----------|--3-----------------------|--3-----------3-----------|
A|--------------------------|--------------------------|--------------------------|--------------------------|
E|--------------------------|--------------------------|--------------------------|--------------------------|

E|--------------3-----------|--4-----------3-----------|--------------1-----------|--3-----------1-----------|
B|--------4-----------4-----|--------4-----------4-----|--------3-----------3-----|--------3-----------3-----|
G|-----0-----0-----0-----0--|-----0-----0-----0-----0--|-----0-----0-----0-----0--|-----0-----0-----0-----0--|
D|--------------------------|--------------------------|--------------------------|--------------------------|
A|--3-----------------------|--------------------------|--2-----------------------|--------------------------|
E|--------------------------|--------------------------|--------------------------|--------------------------|

E|--------------3-----------|--------------------------|--------------1-----------|--------------------------|
B|--------0-----------0-----|--------1-----------1-----|--------3-----------3-----|--------4-----------3-----|
G|-----0-----0-----0-----0--|-----0-----0-----0-----0--|-----0-----0-----0-----0--|-----0-----0-----0-----0--|
D|--------------------------|--1-----------------------|--------------------------|--------------------------|
A|--------------------------|--------------3-----------|--2-----------------------|--3-----------2-----------|
E|--3-----------------------|--------------------------|--------------------------|--------------------------|

E|--------------3-----------|--------1-----------1-----|--0-----------------------||
B|--------0-----------0-----|-----0-----0-----0-----0--|--1-----------------------||
G|-----0-----0-----0-----0--|--1-----------------------|--0-----------------------||
D|--------------------------|--------------3-----------|--------------------------||
A|--------------------------|--------------------------|--3-----------------------||
E|--3-----------------------|--------------------------|--------------------------||

Home Home Home

E-mail Pete the answers to all his questions.