Back to guitar page

 

Study #3 in E minor

Peter Kosenko
(feel free to play it, but not to publish it without asking me)

	3/4 Time     To be played vigorously
	|--------------------|--------------------|--------------------|--------------------|
	|--1--------1--------|--1-----1-----1-----|--1--------1--------|--1-----1-----1-----|
	|-----0--------0-----|-----0-----0-----0--|-----0--------0-----|-----0-----0-----0--|
	|--------2--2-----2--|--4-----4-----4-----|--------2--2-----2--|--4-----4-----2-----|
	|--0-----------------|--------------------|--0-----------------|--------------------|
	|--------------------|--------------------|--------------------|--------------------|


	|--------------------|--------------------|--------------------|--------------------|
	|--0--------0--------|--0-----0-----0-----|--0--------0--------|--0-----0-----0-----|
	|-----0--------0-----|-----0-----0-----0--|-----0--------0-----|-----0-----0-----0--|
	|--------2--2-----2--|--4-----4-----4-----|--------2--2-----2--|--4-----4-----4-----|
	|--------------------|--------------------|--------------------|--------------------|
	|--0-----------------|--------------------|--------------------|--------------------|


	|--------------------|--------------------|--------------------|--------------------|
	|--1--------1--------|--1-----1-----1-----|--1--------1--------|--1-----1-----1-----|
	|-----0--------0-----|-----0-----0-----0--|-----0--------0-----|-----0-----0-----0--|
	|--------2--2-----2--|--4-----4-----4-----|--------2--2-----2--|--4-----4-----2-----|
	|--0-----------------|--------------------|--0-----------------|--------------------|
	|--------------------|--------------------|--------------------|--------------------|


	|--------------------|--------------------|--------------------|--------------------|
	|--0--------0--------|--0-----0-----0-----|--0--------0--------|--0-----0-----0-----|
	|-----0--------0-----|-----0-----0-----0--|-----0--------0-----|-----0-----0-----0--|
	|--------2--2-----2--|--4-----4-----4-----|--------2--2-----2--|--4-----4-----4-----|
	|--------------------|--------------------|--------------------|--------------------|
	|--0-----------------|--------------------|--------------------|--------------------|


	|-----------3--------|-----------5--------|-----------3--------|-----------2--------|
	|--1-----------1-----|--0-----------0-----|--1-----------1-----|--0-----------0-----|
	|-----0-----------0--|-----5-----------5--|-----0-----------0--|-----2-----------2--|
	|--------2-----------|--------2-----------|--------2-----------|--------0-----------|
	|--0-----------------|--0-----------------|--0-----------------|--2-----------------|
	|--------------------|--------------------|--------------------|--------------------|


	|-----------0--------|-----------0--------|-----------0--------|-----------0--------|
	|--0-----------0-----|--0-----------0-----|--0-----------0-----|--0-----------0-----|
	|-----0-----------0--|-----0-----------0--|-----0-----------0--|-----0-----------0--|
	|--------2-----------|--------4-----------|--------2-----------|--------4-----------|
	|--------------------|--2-----------------|--------------------|--2-----------------|
	|--0-----------------|--------------------|--0-----------------|--------------------|


	|-----------3--------|-----------5--------|-----------3--------|-----------2--------|
	|--1-----------1-----|--0-----------0-----|--1-----------1-----|--0-----------0-----|
	|-----0-----------0--|-----5-----------5--|-----0-----------0--|-----2-----------2--|
	|--------2-----------|--------2-----------|--------2-----------|--------0-----------|
	|--0-----------------|--0-----------------|--0-----------------|--2-----------------|
	|--------------------|--------------------|--------------------|--------------------|


	|-----------0--------|-----------0--------|-----------0--------|-----------0--------|
	|--0-----------0-----|--0-----------0-----|--0-----------0-----|--0-----------0-----|
	|-----0-----------0--|-----0-----------0--|-----0-----------0--|-----0-----------0--|
	|--------2-----------|--------4-----------|--------2-----------|--------4-----------|
	|--------------------|--2-----------------|--------------------|--2-----------------|
	|--0-----------------|--------------------|--0-----------------|--------------------|


	|-----------5--------|-----------8--------|----------10--------|-----------8--------|
	|--0-----------0-----|--7-----------7-----|--8-----------8-----|--7-----------7-----|
	|-----5-----------5--|-----0-----------0--|-----0-----------0--|-----0-----------0--|
	|--------2-----------|--------7-----------|--------9-----------|--------7-----------|
	|--0-----------------|--0-----------------|--0-----------------|--0-----------------|
	|--------------------|--------------------|--------------------|--------------------|


	|-----------0--------|-----------0--------|-----------7--------|--7-----7-----7-----|
	|--0-----------0-----|--8-----------8-----|--8-----------8-----|-----0-----0-----0--|
	|-----9-----------9--|-----9-----------9--|-----9-----------9--|--------------------|
	|--------9-----------|--------9-----------|--------9-----------|--5-----5-----5-----|
	|--------------------|--7-----------------|--------------------|--------------------|
	|--0-----------------|--------------------|--0-----------------|--------------------|


	|-----------0--------|-----------0--------|-----------0--------|-----------0--------|
	|--0-----------0-----|--5-----------5-----|--7-----------7-----|--8-----------8-----|
	|-----8-----------8--|-----8-----------8--|-----8-----------8--|-----8-----------8--|
	|--------7-----------|--------7-----------|--------7-----------|--------7-----------|
	|--6-----------------|--6-----------------|--6-----------------|--6-----------------|
	|--------------------|--------------------|--------------------|--------------------|

	Ritardando on repetition
	|-----------0--------|-----------0--------|-----------0--------|-----------0--------|
	|--0-----------0-----|--0-----------0-----|--0-----------0-----|--0-----------0-----|
	|-----0-----------0--|-----0-----------0--|-----0-----------0--|-----0-----------0--|
	|--------2-----------|--------4-----------|--------2-----------|--------4-----------|
	|--------------------|--2-----------------|--------------------|--2-----------------|
	|--0-----------------|--------------------|--0-----------------|--------------------|

	1.
	|--------------------|--------------------|--------------------|--------------------|
	|--1--------1--------|--1-----1-----1-----|--1--------1--------|--1-----1-----1-----|
	|-----0--------0-----|-----0-----0-----0--|-----0--------0-----|-----0-----0-----0--|
	|--------2--2-----2--|--4-----4-----4-----|--------2--2-----2--|--4-----4-----2-----|
	|--0-----------------|--------------------|--0-----------------|--------------------|
	|--------------------|--------------------|--------------------|--------------------|


	|--------------------|--------------------|--------------------|--------------------|
	|--0--------0--------|--0-----0-----0-----|--0--------0--------|--0-----0-----0-----|
	|-----0--------0-----|-----0-----0-----0--|-----0--------0-----|-----0-----0-----0--|
	|--------2--2-----2--|--4-----4-----4-----|--------2--2-----2--|--4-----4-----4-----|
	|--------------------|--------------------|--------------------|--------------------|
	|--0-----------------|--------------------|--------------------|--------------------|


	|--------------------|--------------------|--------------------|--------------------|
	|--1--------1--------|--1-----1-----1-----|--1--------1--------|--1-----1-----1-----|
	|-----0--------0-----|-----0-----0-----0--|-----0--------0-----|-----0-----0-----0--|
	|--------2--2-----2--|--4-----4-----4-----|--------2--2-----2--|--4-----4-----2-----|
	|--0-----------------|--------------------|--0-----------------|--------------------|
	|--------------------|--------------------|--------------------|--------------------|


	|--------------------|--------------------|--------------------|--------------------|
	|--0--------0--------|--0-----0-----0-----|--0--------0--------|--0-----0-----0-----|
	|-----0--------0-----|-----0-----0-----0--|-----0--------0-----|-----0-----0-----0--|
	|--------2--2-----2--|--4-----4-----4-----|--------2--2-----2--|--4-----4-----4-----|
	|--------------------|--------------------|--------------------|--------------------|
	|--0-----------------|--------------------|--------------------|--------------------|


	|--------------0-----|-----------0--------|--------------0-----|-----------3--------|
	|-----------0-----0--|--3-----------3-----|-----------0-----0--|--6-----------0-----|
	|--------2-----------|-----2-----------2--|--------2-----------|-----2-----------2--|
	|-----3--------------|--------3-----------|-----3--------------|--------3-----------|
	|--3-----------------|--3-----------------|--5-----------------|--0-----------------|
	|--------------------|--------------------|--------------------|--------------------|


	|-----------0--------|-----------0--------|-----------0--------|-----------0--------|
	|--0-----------0-----|--0-----------0-----|--0-----------0-----|--0-----------0-----|
	|-----9-----------9--|-----9-----------9--|-----9-----------9--|-----1-----------1--|
	|--------9-----------|--------7-----------|--------6-----------|--------2-----------|
	|--7-----------------|--7-----------------|--7-----------------|--------------------|
	|--------------------|--------------------|--------------------|--0-----------------|


	|--------------0-----|-----------0--------|--------------0-----|-----------3--------|
	|-----------0-----0--|--3-----------3-----|-----------0-----0--|--6-----------0-----|
	|--------2-----------|-----2-----------2--|--------2-----------|-----2-----------2--|
	|-----3--------------|--------3-----------|-----3--------------|--------3-----------|
	|--3-----------------|--3-----------------|--5-----------------|--0-----------------|
	|--------------------|--------------------|--------------------|--------------------|

	                                                                     Da Capo al Fine
	|--7--------7--------|--5--------5--------|--4-----4-----7-----|-----------0--------||
	|-----0--------0-----|-----0--------0-----|-----0-----0-----0--|--5-----------5-----||
	|--------------------|--------------------|--------------------|-----4-----------4--||*
	|--9-----9--9-----9--|--7-----7--------7--|--6-----6-----6-----|--------6-----------||*
	|--------------------|--------------------|--------------------|--7-----------------||
	|--------------------|--------------------|--------------------|--------------------||

	2.                    Brush
	|-----------0--------|--0-----------------|||
	|--0-----------0-----|--0-----------------|||
	|-----0-----------0--|--0-----------------|||
	|--------2-----------|--2-----------------|||
	|--------------------|--2-----------------|||
	|--0-----------------|--0-----------------|||


Home Home

E-mail Pete the answers to all his questions.